ISO-10303-21;
HEADER;
FILE_DESCRIPTION (( 'STEP AP203' ),
    '1' );
FILE_NAME ('BK7-BPBSC-12.7-1200-1600.STEP',
    '2021-01-05T02:11:04',
    ( '' ),
    ( '' ),
    'SwSTEP 2.0',
    'SolidWorks 2020',
    '' );
FILE_SCHEMA (( 'CONFIG_CONTROL_DESIGN' ));
ENDSEC;

DATA;
#1 = DIRECTION ( 'NONE',  ( -2.903408047666378392E-16, -1.000000000000000000, 0.000000000000000000 ) ) ;
#2 = EDGE_CURVE ( 'NONE', #290, #245, #43, .T. ) ;
#3 = FACE_OUTER_BOUND ( 'NONE', #275, .T. ) ;
#4 = ORIENTED_EDGE ( 'NONE', *, *, #2, .F. ) ;
#5 = PERSON_AND_ORGANIZATION ( #38, #265 ) ;
#6 = SECURITY_CLASSIFICATION ( '', '', #310 ) ;
#7 = VERTEX_POINT ( 'NONE', #67 ) ;
#8 = DIRECTION ( 'NONE',  ( -2.220446049250312588E-16, 1.000000000000000000, 0.000000000000000000 ) ) ;
#9 = CC_DESIGN_PERSON_AND_ORGANIZATION_ASSIGNMENT ( #184, #35, ( #6 ) ) ;
#10 = APPROVAL_STATUS ( 'not_yet_approved' ) ;
#11 = CLOSED_SHELL ( 'NONE', ( #137, #157, #41, #145, #297 ) ) ;
#12 = VECTOR ( 'NONE', #118, 1000.000000000000000 ) ;
#13 = COORDINATED_UNIVERSAL_TIME_OFFSET ( 8, 0, .AHEAD. ) ;
#14 = CARTESIAN_POINT ( 'NONE',  ( -6.349999999999999645, -6.350000000000000533, 6.349999999999999645 ) ) ;
#15 = EDGE_CURVE ( 'NONE', #314, #146, #294, .T. ) ;
#16 = DIRECTION ( 'NONE',  ( 0.000000000000000000, -0.000000000000000000, 1.000000000000000000 ) ) ;
#17 = VECTOR ( 'NONE', #260, 1000.000000000000000 ) ;
#18 = DATE_TIME_ROLE ( 'classification_date' ) ;
#19 = DIRECTION ( 'NONE',  ( -0.000000000000000000, 0.000000000000000000, 1.000000000000000000 ) ) ;
#20 = EDGE_CURVE ( 'NONE', #230, #26, #272, .T. ) ;
#21 = DATE_TIME_ROLE ( 'creation_date' ) ;
#22 = CARTESIAN_POINT ( 'NONE',  ( 6.349999999999998757, 6.349999999999998757, -6.349999999999999645 ) ) ;
#23 = VECTOR ( 'NONE', #8, 1000.000000000000000 ) ;
#24 = ORIENTED_EDGE ( 'NONE', *, *, #163, .T. ) ;
#25 = MANIFOLD_SOLID_BREP ( 'Í¹Ì¨-À', #288 ) ;
#26 = VERTEX_POINT ( 'NONE', #22 ) ;
#27 = MANIFOLD_SOLID_BREP ( '¾µÏ', #11 ) ;
#28 = CARTESIAN_POINT ( 'NONE',  ( -6.350000000000002309, 6.350000000000001421, 6.349999999999999645 ) ) ;
#29 = PERSON_AND_ORGANIZATION_ROLE ( 'design_owner' ) ;
#30 = CARTESIAN_POINT ( 'NONE',  ( -6.350000000000002309, 6.350000000000001421, 6.349999999999999645 ) ) ;
#31 = VECTOR ( 'NONE', #284, 1000.000000000000000 ) ;
#32 = DIRECTION ( 'NONE',  ( 0.000000000000000000, 0.000000000000000000, 1.000000000000000000 ) ) ;
#33 = EDGE_CURVE ( 'NONE', #146, #204, #299, .T. ) ;
#34 = PERSON_AND_ORGANIZATION ( #38, #265 ) ;
#35 = PERSON_AND_ORGANIZATION_ROLE ( 'classification_officer' ) ;
#36 = PERSON_AND_ORGANIZATION ( #38, #265 ) ;
#37 = LINE ( 'NONE', #213, #142 ) ;
#38 = PERSON ( 'UNSPECIFIED', 'UNSPECIFIED', 'UNSPECIFIED', ('UNSPECIFIED'), ('UNSPECIFIED'), ('UNSPECIFIED') ) ;
#39 = VECTOR ( 'NONE', #225, 1000.000000000000000 ) ;
#40 = APPROVAL ( #10, 'UNSPECIFIED' ) ;
#41 = ADVANCED_FACE ( 'NONE', ( #317 ), #194, .F. ) ;
#42 = CARTESIAN_POINT ( 'NONE',  ( -6.349999999999999645, -6.350000000000000533, -6.349999999999999645 ) ) ;
#43 = LINE ( 'NONE', #61, #292 ) ;
#44 = CARTESIAN_POINT ( 'NONE',  ( 6.349999999999996980, 6.349999999999996980, 6.349999999999999645 ) ) ;
#45 = CARTESIAN_POINT ( 'NONE',  ( 6.349999999999998757, 6.349999999999998757, 6.349999999999999645 ) ) ;
#46 = VECTOR ( 'NONE', #154, 1000.000000000000000 ) ;
#47 = DIRECTION ( 'NONE',  ( 0.7071067811865474617, 0.7071067811865474617, 0.000000000000000000 ) ) ;
#48 = CC_DESIGN_PERSON_AND_ORGANIZATION_ASSIGNMENT ( #36, #131, ( #132 ) ) ;
#49 = FACE_OUTER_BOUND ( 'NONE', #178, .T. ) ;
#50 = DIRECTION ( 'NONE',  ( 1.000000000000000000, 0.000000000000000000, 0.000000000000000000 ) ) ;
#51 = ORIENTED_EDGE ( 'NONE', *, *, #186, .T. ) ;
#52 = LINE ( 'NONE', #28, #39 ) ;
#53 = PERSON_AND_ORGANIZATION ( #38, #265 ) ;
#54 = APPLICATION_CONTEXT ( 'configuration controlled 3d designs of mechanical parts and assemblies' ) ;
#55 = CARTESIAN_POINT ( 'NONE',  ( 6.349999999999998757, 6.349999999999998757, -6.349999999999999645 ) ) ;
#56 = CARTESIAN_POINT ( 'NONE',  ( 0.000000000000000000, 0.000000000000000000, 6.349999999999999645 ) ) ;
#57 = LOCAL_TIME ( 10, 11, 4.000000000000000000, #103 ) ;
#58 = PERSON_AND_ORGANIZATION ( #38, #265 ) ;
#59 = APPROVAL ( #109, 'UNSPECIFIED' ) ;
#60 = ORIENTED_EDGE ( 'NONE', *, *, #15, .F. ) ;
#61 = CARTESIAN_POINT ( 'NONE',  ( -6.349999999999999645, -6.350000000000000533, 6.349999999999999645 ) ) ;
#62 = AXIS2_PLACEMENT_3D ( 'NONE', #278, #96, #47 ) ;
#63 = ORIENTED_EDGE ( 'NONE', *, *, #217, .T. ) ;
#64 = VERTEX_POINT ( 'NONE', #173 ) ;
#65 = VERTEX_POINT ( 'NONE', #199 ) ;
#66 = PLANE ( 'NONE',  #261 ) ;
#67 = CARTESIAN_POINT ( 'NONE',  ( 6.349999999999996980, 6.349999999999996980, -6.349999999999999645 ) ) ;
#68 = DIRECTION ( 'NONE',  ( 1.000000000000000000, 0.000000000000000000, 0.000000000000000000 ) ) ;
#69 = CARTESIAN_POINT ( 'NONE',  ( 0.000000000000000000, 0.000000000000000000, 0.000000000000000000 ) ) ;
#70 = VERTEX_POINT ( 'NONE', #42 ) ;
#71 =( NAMED_UNIT ( * ) PLANE_ANGLE_UNIT ( ) SI_UNIT ( $, .RADIAN. ) );
#72 = PLANE ( 'NONE',  #221 ) ;
#73 = VECTOR ( 'NONE', #175, 999.9999999999998863 ) ;
#74 = DIRECTION ( 'NONE',  ( -0.7071067811865474617, -0.7071067811865474617, 0.000000000000000000 ) ) ;
#75 = APPROVAL_ROLE ( '' ) ;
#76 = PLANE ( 'NONE',  #318 ) ;
#77 = CARTESIAN_POINT ( 'NONE',  ( 6.349999999999998757, 6.349999999999998757, -6.349999999999999645 ) ) ;
#78 = CC_DESIGN_DATE_AND_TIME_ASSIGNMENT ( #259, #18, ( #6 ) ) ;
#79 = CARTESIAN_POINT ( 'NONE',  ( -6.349999999999998757, -6.349999999999997868, 6.349999999999999645 ) ) ;
#80 = EDGE_CURVE ( 'NONE', #290, #70, #134, .T. ) ;
#81 = DIRECTION ( 'NONE',  ( -2.220446049250312588E-16, 1.000000000000000000, 0.000000000000000000 ) ) ;
#82 = CC_DESIGN_APPROVAL ( #59, ( #6 ) ) ;
#83 = ORIENTED_EDGE ( 'NONE', *, *, #120, .F. ) ;
#84 = EDGE_LOOP ( 'NONE', ( #271, #149, #176, #24 ) ) ;
#85 = CALENDAR_DATE ( 2021, 5, 1 ) ;
#86 = ORIENTED_EDGE ( 'NONE', *, *, #91, .F. ) ;
#87 = CARTESIAN_POINT ( 'NONE',  ( 6.349999999999996980, 6.349999999999996980, 6.349999999999999645 ) ) ;
#88 =( GEOMETRIC_REPRESENTATION_CONTEXT ( 3 ) GLOBAL_UNCERTAINTY_ASSIGNED_CONTEXT ( ( #214 ) ) GLOBAL_UNIT_ASSIGNED_CONTEXT ( ( #312, #71, #226 ) ) REPRESENTATION_CONTEXT ( 'NONE', 'WORKASPACE' ) );
#89 = ORIENTED_EDGE ( 'NONE', *, *, #33, .F. ) ;
#90 = APPROVAL_DATE_TIME ( #243, #241 ) ;
#91 = EDGE_CURVE ( 'NONE', #245, #230, #276, .T. ) ;
#92 = PLANE ( 'NONE',  #108 ) ;
#93 = EDGE_LOOP ( 'NONE', ( #138, #164, #196, #174 ) ) ;
#94 = DIRECTION ( 'NONE',  ( -0.000000000000000000, 0.000000000000000000, 1.000000000000000000 ) ) ;
#95 = AXIS2_PLACEMENT_3D ( 'NONE', #44, #1, #291 ) ;
#96 = DIRECTION ( 'NONE',  ( 0.7071067811865475727, -0.7071067811865475727, 0.000000000000000000 ) ) ;
#97 = DIRECTION ( 'NONE',  ( 0.000000000000000000, 0.000000000000000000, 1.000000000000000000 ) ) ;
#98 = DIRECTION ( 'NONE',  ( -0.7071067811865475727, -0.7071067811865475727, 0.000000000000000000 ) ) ;
#99 = PLANE ( 'NONE',  #285 ) ;
#100 = APPROVAL_PERSON_ORGANIZATION ( #58, #40, #208 ) ;
#101 = CC_DESIGN_PERSON_AND_ORGANIZATION_ASSIGNMENT ( #53, #151, ( #132 ) ) ;
#102 = CARTESIAN_POINT ( 'NONE',  ( -6.349999999999999645, -6.350000000000000533, -6.349999999999999645 ) ) ;
#103 = COORDINATED_UNIVERSAL_TIME_OFFSET ( 8, 0, .AHEAD. ) ;
#104 = DATE_AND_TIME ( #106, #143 ) ;
#105 = CARTESIAN_POINT ( 'NONE',  ( 6.349999999999999645, -6.350000000000000533, 6.349999999999999645 ) ) ;
#106 = CALENDAR_DATE ( 2021, 5, 1 ) ;
#107 = ADVANCED_FACE ( 'NONE', ( #115 ), #177, .F. ) ;
#108 = AXIS2_PLACEMENT_3D ( 'NONE', #249, #205, #153 ) ;
#109 = APPROVAL_STATUS ( 'not_yet_approved' ) ;
#110 = CARTESIAN_POINT ( 'NONE',  ( 6.349999999999996980, 6.349999999999996980, -6.349999999999999645 ) ) ;
#111 = ORIENTED_EDGE ( 'NONE', *, *, #267, .T. ) ;
#112 = ORIENTED_EDGE ( 'NONE', *, *, #166, .F. ) ;
#113 = EDGE_LOOP ( 'NONE', ( #170, #296, #86, #63 ) ) ;
#114 = VECTOR ( 'NONE', #219, 1000.000000000000000 ) ;
#115 = FACE_OUTER_BOUND ( 'NONE', #300, .T. ) ;
#116 = ORIENTED_EDGE ( 'NONE', *, *, #250, .T. ) ;
#117 = EDGE_CURVE ( 'NONE', #146, #65, #52, .T. ) ;
#118 = DIRECTION ( 'NONE',  ( -6.829619984160658046E-17, 1.000000000000000000, -0.000000000000000000 ) ) ;
#119 = VERTEX_POINT ( 'NONE', #256 ) ;
#120 = EDGE_CURVE ( 'NONE', #204, #314, #198, .T. ) ;
#121 = CARTESIAN_POINT ( 'NONE',  ( 0.000000000000000000, 0.000000000000000000, 6.349999999999999645 ) ) ;
#122 = APPLICATION_PROTOCOL_DEFINITION ( 'international standard', 'config_control_design', 1994, #54 ) ;
#123 = VECTOR ( 'NONE', #188, 1000.000000000000000 ) ;
#124 = CARTESIAN_POINT ( 'NONE',  ( -6.349999999999998757, -6.349999999999997868, 6.349999999999999645 ) ) ;
#125 = LINE ( 'NONE', #233, #23 ) ;
#126 = PRODUCT_RELATED_PRODUCT_CATEGORY ( 'detail', '', ( #303 ) ) ;
#127 = CC_DESIGN_APPROVAL ( #40, ( #132 ) ) ;
#128 = CARTESIAN_POINT ( 'NONE',  ( 6.349999999999999645, -6.350000000000000533, 6.349999999999999645 ) ) ;
#129 = ADVANCED_FACE ( 'NONE', ( #49 ), #179, .F. ) ;
#130 = LINE ( 'NONE', #128, #17 ) ;
#131 = PERSON_AND_ORGANIZATION_ROLE ( 'design_supplier' ) ;
#132 = PRODUCT_DEFINITION_FORMATION_WITH_SPECIFIED_SOURCE ( 'ANY', '', #303, .NOT_KNOWN. ) ;
#133 = ADVANCED_BREP_SHAPE_REPRESENTATION ( 'BK7-BPBSC-12.7-1200-1600', ( #25, #27, #155 ), #88 ) ;
#134 = LINE ( 'NONE', #242, #274 ) ;
#135 = DATE_AND_TIME ( #289, #234 ) ;
#136 = AXIS2_PLACEMENT_3D ( 'NONE', #56, #19, #158 ) ;
#137 = ADVANCED_FACE ( 'NONE', ( #3 ), #92, .F. ) ;
#138 = ORIENTED_EDGE ( 'NONE', *, *, #186, .F. ) ;
#139 = ORIENTED_EDGE ( 'NONE', *, *, #80, .F. ) ;
#140 = APPROVAL_ROLE ( '' ) ;
#141 = CARTESIAN_POINT ( 'NONE',  ( -6.349999999999998757, -6.349999999999997868, 6.349999999999999645 ) ) ;
#142 = VECTOR ( 'NONE', #287, 1000.000000000000114 ) ;
#143 = LOCAL_TIME ( 10, 11, 4.000000000000000000, #13 ) ;
#144 = CARTESIAN_POINT ( 'NONE',  ( 6.349999999999996980, 6.349999999999996980, 6.349999999999999645 ) ) ;
#145 = ADVANCED_FACE ( 'NONE', ( #252 ), #66, .T. ) ;
#146 = VERTEX_POINT ( 'NONE', #30 ) ;
#147 = FACE_OUTER_BOUND ( 'NONE', #113, .T. ) ;
#148 = PERSON_AND_ORGANIZATION ( #38, #265 ) ;
#149 = ORIENTED_EDGE ( 'NONE', *, *, #117, .F. ) ;
#150 = CARTESIAN_POINT ( 'NONE',  ( 0.000000000000000000, 0.000000000000000000, -6.349999999999999645 ) ) ;
#151 = PERSON_AND_ORGANIZATION_ROLE ( 'creator' ) ;
#152 = VECTOR ( 'NONE', #302, 1000.000000000000000 ) ;
#153 = DIRECTION ( 'NONE',  ( 0.7071067811865475727, 0.7071067811865475727, 0.000000000000000000 ) ) ;
#154 = DIRECTION ( 'NONE',  ( -6.829619984160658046E-17, 1.000000000000000000, -0.000000000000000000 ) ) ;
#155 = AXIS2_PLACEMENT_3D ( 'NONE', #69, #97, #50 ) ;
#156 = CARTESIAN_POINT ( 'NONE',  ( -6.349999999999998757, -6.349999999999997868, 6.349999999999999645 ) ) ;
#157 = ADVANCED_FACE ( 'NONE', ( #301 ), #72, .F. ) ;
#158 = DIRECTION ( 'NONE',  ( 1.000000000000000000, 0.000000000000000000, 0.000000000000000000 ) ) ;
#159 = FACE_OUTER_BOUND ( 'NONE', #319, .T. ) ;
#160 = LOCAL_TIME ( 10, 11, 4.000000000000000000, #320 ) ;
#161 = ORIENTED_EDGE ( 'NONE', *, *, #263, .F. ) ;
#162 = PLANE ( 'NONE',  #136 ) ;
#163 = EDGE_CURVE ( 'NONE', #204, #7, #273, .T. ) ;
#164 = ORIENTED_EDGE ( 'NONE', *, *, #224, .F. ) ;
#165 = VECTOR ( 'NONE', #283, 1000.000000000000000 ) ;
#166 = EDGE_CURVE ( 'NONE', #7, #119, #228, .T. ) ;
#167 = EDGE_LOOP ( 'NONE', ( #255, #201, #4, #248 ) ) ;
#168 = DIRECTION ( 'NONE',  ( 1.000000000000000000, 0.000000000000000000, 0.000000000000000000 ) ) ;
#169 = DIRECTION ( 'NONE',  ( -2.220446049250312588E-16, 1.000000000000000000, 0.000000000000000000 ) ) ;
#170 = ORIENTED_EDGE ( 'NONE', *, *, #263, .T. ) ;
#171 = CC_DESIGN_PERSON_AND_ORGANIZATION_ASSIGNMENT ( #197, #295, ( #315 ) ) ;
#172 = CARTESIAN_POINT ( 'NONE',  ( 6.349999999999998757, 6.349999999999998757, 6.349999999999999645 ) ) ;
#173 = CARTESIAN_POINT ( 'NONE',  ( 6.349999999999999645, -6.350000000000000533, -6.349999999999999645 ) ) ;
#174 = ORIENTED_EDGE ( 'NONE', *, *, #117, .T. ) ;
#175 = DIRECTION ( 'NONE',  ( -0.7071067811865475727, -0.7071067811865475727, 0.000000000000000000 ) ) ;
#176 = ORIENTED_EDGE ( 'NONE', *, *, #33, .T. ) ;
#177 = PLANE ( 'NONE',  #62 ) ;
#178 = EDGE_LOOP ( 'NONE', ( #191, #161, #193 ) ) ;
#179 = PLANE ( 'NONE',  #309 ) ;
#180 = DATE_AND_TIME ( #182, #181 ) ;
#181 = LOCAL_TIME ( 10, 11, 4.000000000000000000, #207 ) ;
#182 = CALENDAR_DATE ( 2021, 5, 1 ) ;
#183 = LINE ( 'NONE', #102, #165 ) ;
#184 = PERSON_AND_ORGANIZATION ( #38, #265 ) ;
#185 = LINE ( 'NONE', #156, #31 ) ;
#186 = EDGE_CURVE ( 'NONE', #119, #65, #125, .T. ) ;
#187 = CC_DESIGN_SECURITY_CLASSIFICATION ( #6, ( #132 ) ) ;
#188 = DIRECTION ( 'NONE',  ( 1.000000000000000000, -2.903408047666378392E-16, 0.000000000000000000 ) ) ;
#189 = CARTESIAN_POINT ( 'NONE',  ( 0.000000000000000000, 0.000000000000000000, -6.349999999999999645 ) ) ;
#190 = VECTOR ( 'NONE', #246, 1000.000000000000000 ) ;
#191 = ORIENTED_EDGE ( 'NONE', *, *, #250, .F. ) ;
#192 = DESIGN_CONTEXT ( 'detailed design', #54, 'design' ) ;
#193 = ORIENTED_EDGE ( 'NONE', *, *, #206, .F. ) ;
#194 = PLANE ( 'NONE',  #95 ) ;
#195 = VECTOR ( 'NONE', #74, 1000.000000000000114 ) ;
#196 = ORIENTED_EDGE ( 'NONE', *, *, #15, .T. ) ;
#197 = PERSON_AND_ORGANIZATION ( #38, #265 ) ;
#198 = LINE ( 'NONE', #202, #212 ) ;
#199 = CARTESIAN_POINT ( 'NONE',  ( -6.350000000000002309, 6.350000000000001421, -6.349999999999999645 ) ) ;
#200 = DIRECTION ( 'NONE',  ( -1.000000000000000000, -6.829619984160658046E-17, 0.000000000000000000 ) ) ;
#201 = ORIENTED_EDGE ( 'NONE', *, *, #217, .F. ) ;
#202 = CARTESIAN_POINT ( 'NONE',  ( 6.349999999999996980, 6.349999999999996980, 6.349999999999999645 ) ) ;
#203 = ADVANCED_FACE ( 'NONE', ( #147 ), #99, .F. ) ;
#204 = VERTEX_POINT ( 'NONE', #211 ) ;
#205 = DIRECTION ( 'NONE',  ( -0.7071067811865475727, 0.7071067811865475727, 0.000000000000000000 ) ) ;
#206 = EDGE_CURVE ( 'NONE', #70, #64, #183, .T. ) ;
#207 = COORDINATED_UNIVERSAL_TIME_OFFSET ( 8, 0, .AHEAD. ) ;
#208 = APPROVAL_ROLE ( '' ) ;
#209 = CC_DESIGN_APPROVAL ( #241, ( #315 ) ) ;
#210 = LINE ( 'NONE', #55, #46 ) ;
#211 = CARTESIAN_POINT ( 'NONE',  ( 6.349999999999996980, 6.349999999999996980, 6.349999999999999645 ) ) ;
#212 = VECTOR ( 'NONE', #98, 999.9999999999998863 ) ;
#213 = CARTESIAN_POINT ( 'NONE',  ( 6.349999999999998757, 6.349999999999998757, 6.349999999999999645 ) ) ;
#214 = UNCERTAINTY_MEASURE_WITH_UNIT (LENGTH_MEASURE( 1.000000000000000082E-05 ), #312, 'distance_accuracy_value', 'NONE');
#215 = APPROVAL_DATE_TIME ( #104, #59 ) ;
#216 = LINE ( 'NONE', #110, #123 ) ;
#217 = EDGE_CURVE ( 'NONE', #245, #64, #130, .T. ) ;
#218 = DIRECTION ( 'NONE',  ( -0.000000000000000000, -0.000000000000000000, -1.000000000000000000 ) ) ;
#219 = DIRECTION ( 'NONE',  ( 1.000000000000000000, -2.903408047666378392E-16, 0.000000000000000000 ) ) ;
#220 = EDGE_LOOP ( 'NONE', ( #277, #269, #266 ) ) ;
#221 = AXIS2_PLACEMENT_3D ( 'NONE', #124, #231, #298 ) ;
#222 = DIRECTION ( 'NONE',  ( -2.220446049250312588E-16, 1.000000000000000000, 0.000000000000000000 ) ) ;
#223 = ORIENTED_EDGE ( 'NONE', *, *, #224, .T. ) ;
#224 = EDGE_CURVE ( 'NONE', #314, #119, #185, .T. ) ;
#225 = DIRECTION ( 'NONE',  ( 0.000000000000000000, 0.000000000000000000, -1.000000000000000000 ) ) ;
#226 =( NAMED_UNIT ( * ) SI_UNIT ( $, .STERADIAN. ) SOLID_ANGLE_UNIT ( ) );
#227 = ORIENTED_EDGE ( 'NONE', *, *, #163, .F. ) ;
#228 = LINE ( 'NONE', #258, #73 ) ;
#229 = APPLICATION_PROTOCOL_DEFINITION ( 'international standard', 'config_control_design', 1994, #251 ) ;
#230 = VERTEX_POINT ( 'NONE', #235 ) ;
#231 = DIRECTION ( 'NONE',  ( 1.000000000000000000, -2.220446049250312588E-16, 0.000000000000000000 ) ) ;
#232 = ORIENTED_EDGE ( 'NONE', *, *, #166, .T. ) ;
#233 = CARTESIAN_POINT ( 'NONE',  ( -6.349999999999998757, -6.349999999999997868, -6.349999999999999645 ) ) ;
#234 = LOCAL_TIME ( 10, 11, 4.000000000000000000, #313 ) ;
#235 = CARTESIAN_POINT ( 'NONE',  ( 6.349999999999998757, 6.349999999999998757, 6.349999999999999645 ) ) ;
#236 = DIRECTION ( 'NONE',  ( 0.000000000000000000, 1.000000000000000000, 0.000000000000000000 ) ) ;
#237 = CALENDAR_DATE ( 2021, 5, 1 ) ;
#238 = CC_DESIGN_PERSON_AND_ORGANIZATION_ASSIGNMENT ( #148, #29, ( #303 ) ) ;
#239 = PLANE ( 'NONE',  #280 ) ;
#240 = ADVANCED_FACE ( 'NONE', ( #306 ), #76, .F. ) ;
#241 = APPROVAL ( #293, 'UNSPECIFIED' ) ;
#242 = CARTESIAN_POINT ( 'NONE',  ( -6.349999999999999645, -6.350000000000000533, 6.349999999999999645 ) ) ;
#243 = DATE_AND_TIME ( #85, #160 ) ;
#244 = ORIENTED_EDGE ( 'NONE', *, *, #20, .T. ) ;
#245 = VERTEX_POINT ( 'NONE', #105 ) ;
#246 = DIRECTION ( 'NONE',  ( -0.000000000000000000, -0.000000000000000000, -1.000000000000000000 ) ) ;
#247 = APPROVAL_PERSON_ORGANIZATION ( #34, #59, #75 ) ;
#248 = ORIENTED_EDGE ( 'NONE', *, *, #80, .T. ) ;
#249 = CARTESIAN_POINT ( 'NONE',  ( 6.349999999999996980, 6.349999999999996980, 6.349999999999999645 ) ) ;
#250 = EDGE_CURVE ( 'NONE', #26, #70, #308, .T. ) ;
#251 = APPLICATION_CONTEXT ( 'configuration controlled 3d designs of mechanical parts and assemblies' ) ;
#252 = FACE_OUTER_BOUND ( 'NONE', #279, .T. ) ;
#253 = MECHANICAL_CONTEXT ( 'NONE', #251, 'mechanical' ) ;
#254 = PRODUCT_DEFINITION_SHAPE ( 'NONE', 'NONE',  #315 ) ;
#255 = ORIENTED_EDGE ( 'NONE', *, *, #206, .T. ) ;
#256 = CARTESIAN_POINT ( 'NONE',  ( -6.349999999999998757, -6.349999999999997868, -6.349999999999999645 ) ) ;
#257 = VECTOR ( 'NONE', #169, 1000.000000000000000 ) ;
#258 = CARTESIAN_POINT ( 'NONE',  ( 6.349999999999996980, 6.349999999999996980, -6.349999999999999645 ) ) ;
#259 = DATE_AND_TIME ( #237, #57 ) ;
#260 = DIRECTION ( 'NONE',  ( -0.000000000000000000, -0.000000000000000000, -1.000000000000000000 ) ) ;
#261 = AXIS2_PLACEMENT_3D ( 'NONE', #121, #32, #222 ) ;
#262 = DIRECTION ( 'NONE',  ( 6.829619984160658046E-17, -1.000000000000000000, 0.000000000000000000 ) ) ;
#263 = EDGE_CURVE ( 'NONE', #64, #26, #210, .T. ) ;
#264 = FACE_OUTER_BOUND ( 'NONE', #220, .T. ) ;
#265 = ORGANIZATION ( 'UNSPECIFIED', 'UNSPECIFIED', '' ) ;
#266 = ORIENTED_EDGE ( 'NONE', *, *, #91, .T. ) ;
#267 = EDGE_CURVE ( 'NONE', #65, #7, #216, .T. ) ;
#268 = ORIENTED_EDGE ( 'NONE', *, *, #270, .F. ) ;
#269 = ORIENTED_EDGE ( 'NONE', *, *, #2, .T. ) ;
#270 = EDGE_CURVE ( 'NONE', #230, #290, #37, .T. ) ;
#271 = ORIENTED_EDGE ( 'NONE', *, *, #267, .F. ) ;
#272 = LINE ( 'NONE', #45, #190 ) ;
#273 = LINE ( 'NONE', #144, #152 ) ;
#274 = VECTOR ( 'NONE', #218, 1000.000000000000000 ) ;
#275 = EDGE_LOOP ( 'NONE', ( #112, #227, #316, #223 ) ) ;
#276 = LINE ( 'NONE', #321, #12 ) ;
#277 = ORIENTED_EDGE ( 'NONE', *, *, #270, .T. ) ;
#278 = CARTESIAN_POINT ( 'NONE',  ( 6.349999999999998757, 6.349999999999998757, 6.349999999999999645 ) ) ;
#279 = EDGE_LOOP ( 'NONE', ( #83, #89, #60 ) ) ;
#280 = AXIS2_PLACEMENT_3D ( 'NONE', #189, #286, #81 ) ;
#281 = APPROVAL_DATE_TIME ( #180, #40 ) ;
#282 = CC_DESIGN_DATE_AND_TIME_ASSIGNMENT ( #135, #21, ( #315 ) ) ;
#283 = DIRECTION ( 'NONE',  ( 1.000000000000000000, 0.000000000000000000, 0.000000000000000000 ) ) ;
#284 = DIRECTION ( 'NONE',  ( 0.000000000000000000, 0.000000000000000000, -1.000000000000000000 ) ) ;
#285 = AXIS2_PLACEMENT_3D ( 'NONE', #172, #200, #262 ) ;
#286 = DIRECTION ( 'NONE',  ( 0.000000000000000000, 0.000000000000000000, 1.000000000000000000 ) ) ;
#287 = DIRECTION ( 'NONE',  ( -0.7071067811865474617, -0.7071067811865474617, 0.000000000000000000 ) ) ;
#288 = CLOSED_SHELL ( 'NONE', ( #107, #240, #203, #305, #129 ) ) ;
#289 = CALENDAR_DATE ( 2021, 5, 1 ) ;
#290 = VERTEX_POINT ( 'NONE', #311 ) ;
#291 = DIRECTION ( 'NONE',  ( -1.000000000000000000, 2.903408047666378392E-16, 0.000000000000000000 ) ) ;
#292 = VECTOR ( 'NONE', #168, 1000.000000000000000 ) ;
#293 = APPROVAL_STATUS ( 'not_yet_approved' ) ;
#294 = LINE ( 'NONE', #141, #257 ) ;
#295 = PERSON_AND_ORGANIZATION_ROLE ( 'creator' ) ;
#296 = ORIENTED_EDGE ( 'NONE', *, *, #20, .F. ) ;
#297 = ADVANCED_FACE ( 'NONE', ( #159 ), #239, .F. ) ;
#298 = DIRECTION ( 'NONE',  ( 0.000000000000000000, 0.000000000000000000, 1.000000000000000000 ) ) ;
#299 = LINE ( 'NONE', #87, #114 ) ;
#300 = EDGE_LOOP ( 'NONE', ( #116, #139, #268, #244 ) ) ;
#301 = FACE_OUTER_BOUND ( 'NONE', #93, .T. ) ;
#302 = DIRECTION ( 'NONE',  ( 0.000000000000000000, 0.000000000000000000, -1.000000000000000000 ) ) ;
#303 = PRODUCT ( 'BK7-BPBSC-12.7-1200-1600', 'BK7-BPBSC-12.7-1200-1600', '', ( #253 ) ) ;
#304 = APPROVAL_PERSON_ORGANIZATION ( #5, #241, #140 ) ;
#305 = ADVANCED_FACE ( 'NONE', ( #264 ), #162, .T. ) ;
#306 = FACE_OUTER_BOUND ( 'NONE', #167, .T. ) ;
#307 = SHAPE_DEFINITION_REPRESENTATION ( #254, #133 ) ;
#308 = LINE ( 'NONE', #77, #195 ) ;
#309 = AXIS2_PLACEMENT_3D ( 'NONE', #150, #94, #68 ) ;
#310 = SECURITY_CLASSIFICATION_LEVEL ( 'unclassified' ) ;
#311 = CARTESIAN_POINT ( 'NONE',  ( -6.349999999999999645, -6.350000000000000533, 6.349999999999999645 ) ) ;
#312 =( LENGTH_UNIT ( ) NAMED_UNIT ( * ) SI_UNIT ( .MILLI., .METRE. ) );
#313 = COORDINATED_UNIVERSAL_TIME_OFFSET ( 8, 0, .AHEAD. ) ;
#314 = VERTEX_POINT ( 'NONE', #79 ) ;
#315 = PRODUCT_DEFINITION ( 'UNKNOWN', '', #132, #192 ) ;
#316 = ORIENTED_EDGE ( 'NONE', *, *, #120, .T. ) ;
#317 = FACE_OUTER_BOUND ( 'NONE', #84, .T. ) ;
#318 = AXIS2_PLACEMENT_3D ( 'NONE', #14, #236, #16 ) ;
#319 = EDGE_LOOP ( 'NONE', ( #232, #51, #111 ) ) ;
#320 = COORDINATED_UNIVERSAL_TIME_OFFSET ( 8, 0, .AHEAD. ) ;
#321 = CARTESIAN_POINT ( 'NONE',  ( 6.349999999999998757, 6.349999999999998757, 6.349999999999999645 ) ) ;
ENDSEC;
END-ISO-10303-21;
